Sites:

Météo St-Alphonse, Qc
(Site 2 via Meteotemplate)

Détecteur de foudre Station IQUEBECS58
(Route Marcellin)

CoCoRaHS Canada
Station CAN-QC-5

Météo Basses-Laurentides, Qc

Météo Breakeyville, Qc

Météo Chaudière-Appalaches, Qc

Météo Chicoutimi, Qc

Météo Fredericton, N-B

Météo Haut-Richelieu, Qc

Météo Kamouraska, Qc

Météo Lanaudière, Qc

Météo Matane, Qc

Météo Montréal, Qc

Météo Mt St-Hilaire, Qc

Météo Outaouais, Qc

Météo Rimouski, Qc

Météo Ste-Famille, Qc

Météo St-Hyacinthe, Qc

Météo St-Laurent, Mtl

Météo St-Léonard, Mtl

Météo St-Hubert, Mtl

Météo St-Pascal, Qc

Météo Vaudreuil, Mtl

Météo Alerte Québec

Météo Centre

État des routes
Québec 511

Québec en Alerte

Orage Québec

Québec Vortex
chasseurs de tempêtes

Hydro Météo (info-rivière)

Avalanche Québec

Agrométéo Québec

Bulletin des agriculteurs

Réseau Météo-Québec

Réseau Météo des Provinces Atlantiques

Séismes Canada
l'Est du Canada

Fire Smoke Canada

Canwarn Québec

Climat Québec

Environnement Canada

MétéoMédia

METEOTEMPLATE

Leuven Template

Municipalité St-Alphonse

LET St-Alphonse

Domaine des Chutes du Ruisseau Creux

RÉGîM



Température (°C) Détail par année par jour - Période: 2018


1: Période 2: Type de rapport 3: Domaine de la météo 4:

JourJanFévMarAvrMaiJuinJulAoûtSepOctNovDéc
HautBasHautBasHautBasHautBasHautBasHautBasHautBasHautBasHautBasHautBasHautBasHautBas
1-9-18-4-15-2-56-5131------------------------------------------
2-10-21-3-184-30-10200------------------------------------------
3-14-23-17-30404-1461------------------------------------------
4-2-19-2-302-2-1-5110------------------------------------------
50-162-143-3-2-10132------------------------------------------
6-14-19-9-171-40-13165------------------------------------------
7-15-22-9-220-32-1111-2------------------------------------------
8-11-19-7-22-2-34-621-3------------------------------------------
9-12-12-9-230-3-1-9171------------------------------------------
10-7-14-5-231-33-1318-1------------------------------------------
110-10-3-104-37-1190------------------------------------------
1241-2-134-48-612-2------------------------------------------
133-9-12-212-47-1162------------------------------------------
14-10-19-2-221-22-11232------------------------------------------
15-11-221-143-33-11191------------------------------------------
16-12-162-120-64-910-2------------------------------------------
17-8-16-9-19-5-102-110-2------------------------------------------
18-5-14-3-16-4-135012-3------------------------------------------
19-8-191-170-119020-2------------------------------------------
200-101-84-74-1152------------------------------------------
21-5-154-82-116-3160------------------------------------------
22-9-19-6-193-610-519-2------------------------------------------
231-14-3-233013-4112------------------------------------------
241-130-112-318-3------------------------------------------------
25-11-16-6-172-11163------------------------------------------------
26-7-211-83-1394------------------------------------------------
27-5-221-127-12174------------------------------------------------
284-10-2-122-6102------------------------------------------------
29-8-17  9-7121------------------------------------------------
30-11-14  3-293------------------------------------------------
31-10-16  2-4  ------  ------------  ------  ------
 
 JanFévMarAvrMaiJuinJulAoûtSepOctNovDéc
Haut4491823---------------------
Haut moyenne-6-42615---------------------
Moyenne-11-10-217---------------------
Bas moyenne-16-17-5-50---------------------
Bas-23-30-13-14-3---------------------
 
Signification des couleurs utilisées
< -15-15 - -10-10 - -5-5 - 00 - 55 - 1010 - 1515 - 2020 - 2525 - 3030 - 3535 - 4040 - 4545 - 5050 - 5555 >

Scénario développé par Wim van der Kuil Weerstation Leuven.  Le scénario utilise les renseignements météorologiques de cette station comme chargés à Weather Underground.  L’idée de ce scénario vient d’un scénario comparable qui utilize les renseignements NOAA de Murry Conarroe Wildwood Weather

Les données sont envoyées via ces sites météo:

WeatherCloud

Weather Underground

Canadian Atlantic Weather Network

AWEKAS

Citizen Weather Observer Program (CWOP)

HAMweather, WeatherForYou, PWS Weather